Bem Vindos!

Este blog é dedicado as pessoas que tem interesse em aprender a tocar contra-baixo assim como eu. Aqui vou postar informações, dicas, vídeos, links para foruns e sites relacionados ao instrumento e principalmente vou tentar reunir exercícios e orientações básicas no estudo do contra-baixo.

Importante dizer que as informações postadas neste blog são geradas a partir dos meus estudos e quando eu postar conhecimento de terceiros vou citar as fontes.

Espero que isso ajude a todos nós.

Italo Wander
Fortaleza -CE

quarta-feira, 6 de julho de 2011

Escalas Pentatônicas:

Escalas pentatônicas são formadas por 5 notas. As mais comuns são deivadas da escala maior natural e da escala menor.
Neste nosso exercício vamos usar o Dó como base, e mostraremos 3 desenhos possíveis para o exercício.

Obs.:Lembro que para mudar o tom da escala basta executar o desenho maior ou menor iniciado por outra nota.

Penta Dó Maior 1° Desenho:
-------------2--5--2----------------------------------------------------------------------------------
-------2--5-----------5--2----------------------------------------------------------------------------
-3--5-----------------------5--3-----------3----------------------------------------------------------
----------------------------------5--3--5-------------------------------------------------------------

Penta Dó Maior 2° Desenho:
----------------------7--9--7-------------------------------------------------------------------------
---------------7--10-----------10--7------------------------------------------------------------------
--------7--10-------------------------10--7-----------------------------------------------------------
-8--10---------------------------------------10--8----------------------------------------------------

Penta Dó Maior 3° Desenho:
----------------5--7--5-------------------------------------------------------------------------------
----------5--7-----------7--5-------------------------------------------------------------------------
----5--7-----------------------7--5-------------------------------------------------------------------
-8-----------------------------------8----------------------------------------------------------------

Penta Dó Menor 1° Desenho:
-------------3--5--3----------------------------------------------------------------------------------
-------3--5-----------5--3----------------------------------------------------------------------------
-3--6-----------------------6--3-----------3----------------------------------------------------------
----------------------------------6--3--6-------------------------------------------------------------

Penta Dó Menor 2° Desenho:
----------------------8--10--8------------------------------------------------------------------------
---------------8--10------------10--8-----------------------------------------------------------------
--------8--10--------------------------10--8----------------------------------------------------------
-8--11----------------------------------------11--8---------------------------------------------------

Penta Dó Menor 3° Desenho:
----------------5--8--5-------------------------------------------------------------------------------
----------5--8-----------8--5-------------------------------------------------------------------------
----6--8-----------------------8--6-------------------------------------------------------------------
-8-----------------------------------8----------------------------------------------------------------

2 comentários:

Lucas Pereira disse...

me manda todas as escala pentatonicas maiores e menores pf mano vlw

Aulas de Contrabaixo disse...

Estou estudando pentatonica essa semana, estou tendo um pouco de dificuldade, principalmente com a velocidade.